No Angel songbook (score-partituras)

Ver el tema anterior Ver el tema siguiente Ir abajo

No Angel songbook (score-partituras)

Mensaje  angelziel el Lun Ago 24, 2009 3:12 pm



bueno aqui les dejo el libro de partituras del album No Angel, nombre con el cual no estoy muy de acuerdo. jajajajaj .......si les gusta la guitarra (como quien les habla) el piano o si simplemente quieres tener todo de dido aqui se los dejo.........
los links son de dos servidores diferentes si no les sirven uno les serviran el otro......

mediafire.com ?ztwwqh3zihj

megaupload.com WZVPBDE3]megaupload descargar

ojala les sea util........



Última edición por angelziel el Vie Nov 06, 2009 9:33 pm, editado 1 vez
avatar
angelziel

Cantidad de envíos : 33
Localización : Colombia
Fecha de inscripción : 15/07/2009

Ver perfil de usuario http://www.facebook.com/christian.alzate.921

Volver arriba Ir abajo

Here With Me acoustic tab

Mensaje  angelziel el Vie Nov 06, 2009 9:31 pm

por si hay alguno q le guste la guitarra o para los recien llegados..............
la tablatura es de un acustico q hizo en el 2001
la cancion es muy facil, guience con el video


cancion: Here With Me (acoustic)
compositores: Dido Armstrong, Paul S,Pascal Gabriel
album: No Angel
Año: 2001






Intro:
E||-----------------------------------------------------
B||-----------------------------------------------------
G||--12--12----12----12-----12--12----12----12----12-
D||--12-----12----12----12--12-----12----12----12-12-
A||-----------------------------------------------------
E||-----------------------------------------------------



Verso 1:

I didn't hear you leave, I wonder how am I still here
E||-----------------------------------------------------
B||-----------------------------------------------------
G||--12--12----12----12-----12--12----12----12----12-
D||--12-----12----12----12--12-----12----12----12-12-
A||-----------------------------------------------------
E||-----------------------------------------------------

E||-------------------------------
B||-------------------------------
G||--12--12----12----12-----12--
D||--12-----12----12----12--12--
A||-------------------------------
E||-------------------------------



And I don't want to move a thing, It might change my memory
E||---------------------------------------------------------------
B||---------------------------------------------------------------
G||--11-11----11----11----11-11----11----11----11--11----11----
D||--12----12----12----12-12----12----12----12-12----12-----12-
A||---------------------------------------------------------------
E||----------------------------------------------------------------

E||-----------------------------
B||-----------------------------
G||--12--11----11----11--------
D||--12-----12----12----12-----
A||-----------------------------
E||-----------------------------

Pre-coro:

E||--------------------------|--------------------------
B||-----------0-----------0--|-----------2-----------2--
G||-----------0-----------0--|-----------2-----------2--
D||--------4-----------4-----|--------6-----------6-----
A||-----2-----------2--------|-----4-----------4--------
E||--0-----------0-----------|--2-----------2-----------
.......Em.....................................F#m
Oh I am what I am, I’ll do what I want, But I can't hide


Coro:
...........G....................D/G
I won't go, I won't sleep
...............D......................Dmaj7
I can't breathe, until you're resting here with me
............Bm
I won't leave, I can't hide
...........Asus2................Asus................A
I cannot be, until you're resting here with me


Verso 2:
.....................G............................................................Bm
I don't wanna call my friends, they might wake me from this dream
..................G.....................................Bm
And I can't leave this bed, risk forgetting all that's been

Pre-coro:

E||--------------------------|--------------------------
B||-----------0-----------0--|-----------2-----------2--
G||-----------0-----------0--|-----------2-----------2--
D||--------4-----------4-----|--------6-----------6-----
A||-----2-----------2--------|-----4-----------4--------
E||--0-----------0-----------|--2-----------2-----------
.......Em.....................................F#m
Oh I am what I am, I’ll do what I want, But I can't hide

Coro:
...........G....................D/G
I won't go, I won't sleep
...............D......................Dmaj7
I can't breathe, until you're resting here with me
............Bm
I won't leave, I can't hide
...........Asus2................Asus................A
I cannot be, until you're resting here with me
...........G....................D/G
I won't go, I won't sleep
...............D......................Dmaj7
I can't breathe, until you're resting here with me
............Bm
I won't leave, I can't hide
...........Asus2................Asus................A
I cannot be, until you're resting here with me

Pre-coro:

E||--------------------------|--------------------------
B||-----------0-----------0--|-----------2-----------2--
G||-----------0-----------0--|-----------2-----------2--
D||--------4-----------4-----|--------6-----------6-----
A||-----2-----------2--------|-----4-----------4--------
E||--0-----------0-----------|--2-----------2-----------
.......Em.....................................F#m
Oh I am what I am, I’ll do what I want, But I can't hide


Coro:
...........G....................D/G
I won't go, I won't sleep
...............D......................Dmaj7
I can't breathe, until you're resting here with me
............Bm
I won't leave, I can't hide
...........Asus2................Asus................A
I cannot be, until you're resting here with me
...........G....................D/G
I won't go, I won't sleep
...............D......................Dmaj7
I can't breathe, until you're resting here with me
............Bm
I won't leave, I can't hide
...........Asus2................Asus................A
I cannot be, until you're resting here with me

acordes:
G G/D D Dmj7 Bm Asus2 Asus A Em F#m
e||--3-----2---2---2-----2-----0------0----0---0---2----
B||--3-----3---3---2-----3-----0------3----2---0---2----
G||--0-----0---2---2-----4-----2------2----2---0---2----
D||--0-----0---0---0-----4-----2------2----2---2---4----
A||--2-----0---X---X-----2-----0------0----0---2---4----
E||--3-----3---X---X-----X-----X------X----X---0---2----

El precoro puede ser algo dificil, pero con practica sale de maravilla, en el video se puede ver q usan capo en el primer traste asi no hay q mover mucho los dedos en el precoro........igual lo pueden hacer asi.....

E||--------------------------|---------------------------
B||--------------------------|---------------------------
G||-----------0-----------0--|----------1-2---------1-2-
D||--------4-----------4-----|---------------------------
A||-----2-----------2--------|-----4-----------4---------
E||--0-----------0-----------|--2-----------2------------

y el intro asi:

E||-3-----3----3----3----2---2----2----
B||----3-----3----3----3---3----3----3-
G||-----------------------------
D||-----------------------------
A||-----------------------------
E||-----------------------------

segun la pericia de los dedos, si hay alguno q le gusta la guitarra en el foro y quiere sugerir o corregir, sera bienvenidas son todas las opiniones.........................
avatar
angelziel

Cantidad de envíos : 33
Localización : Colombia
Fecha de inscripción : 15/07/2009

Ver perfil de usuario http://www.facebook.com/christian.alzate.921

Volver arriba Ir abajo

Ver el tema anterior Ver el tema siguiente Volver arriba

- Temas similares

 
Permisos de este foro:
No puedes responder a temas en este foro.